ISO-10303-21;
HEADER;
FILE_DESCRIPTION (( 'STEP AP214' ),
    '1' );
FILE_NAME ('SK6-1_4A_light.STEP',
    '2020-11-20T20:38:57',
    ( 'Adriana' ),
    ( 'HP Inc.' ),
    'SwSTEP 2.0',
    'SolidWorks 2020',
    '' );
FILE_SCHEMA (( 'AUTOMOTIVE_DESIGN' ));
ENDSEC;

DATA;
#1 = CARTESIAN_POINT ( 'NONE',  ( 0.0000000000000000000, 0.0000000000000000000, 0.0000000000000000000 ) ) ;
#2 = DIRECTION ( 'NONE',  ( -3.491481338843133355E-15, 0.0000000000000000000, -1.000000000000000000 ) ) ;
#3 = APPLICATION_PROTOCOL_DEFINITION ( 'draft international standard', 'automotive_design', 1998, #140 ) ;
#4 = CARTESIAN_POINT ( 'NONE',  ( -1.524594082048715320E-14, 0.0000000000000000000, -4.366611000000000686 ) ) ;
#5 = ORIENTED_EDGE ( 'NONE', *, *, #58, .F. ) ;
#6 = CIRCLE ( 'NONE', #166, 3.899999999999999911 ) ;
#7 = DIRECTION ( 'NONE',  ( 1.000000000000000000, 0.0000000000000000000, -3.491481338843133355E-15 ) ) ;
#8 = EDGE_CURVE ( 'NONE', #55, #55, #61, .T. ) ;
#9 = EDGE_LOOP ( 'NONE', ( #170 ) ) ;
#10 = AXIS2_PLACEMENT_3D ( 'NONE', #196, #131, #48 ) ;
#11 = SURFACE_STYLE_FILL_AREA ( #163 ) ;
#12 = EDGE_CURVE ( 'NONE', #105, #105, #92, .T. ) ;
#13 = CARTESIAN_POINT ( 'NONE',  ( -1.396592535537253342E-14, 0.0000000000000000000, -4.000000000000000000 ) ) ;
#14 = EDGE_LOOP ( 'NONE', ( #46 ) ) ;
#15 = SURFACE_STYLE_USAGE ( .BOTH. , #100 ) ;
#16 = ORIENTED_EDGE ( 'NONE', *, *, #118, .F. ) ;
#17 = CARTESIAN_POINT ( 'NONE',  ( -5.237222008264873582E-16, 0.0000000000000000000, -0.1500000000000049627 ) ) ;
#18 = AXIS2_PLACEMENT_3D ( 'NONE', #245, #212, #190 ) ;
#19 = FACE_OUTER_BOUND ( 'NONE', #179, .T. ) ;
#20 = CARTESIAN_POINT ( 'NONE',  ( -8.623958906942540019E-14, 0.0000000000000000000, -24.69999999999999929 ) ) ;
#21 = DIRECTION ( 'NONE',  ( 1.000000000000000000, 0.0000000000000000000, -3.488302641909884140E-15 ) ) ;
#22 = ADVANCED_FACE ( 'NONE', ( #152, #19 ), #173, .T. ) ;
#23 = DIRECTION ( 'NONE',  ( -3.491481338843133355E-15, 0.0000000000000000000, -1.000000000000000000 ) ) ;
#24 = PLANE ( 'NONE',  #83 ) ;
#25 = PRESENTATION_LAYER_ASSIGNMENT (  '', '', ( #96 ) ) ;
#26 = CARTESIAN_POINT ( 'NONE',  ( -8.170066332892932051E-14, 0.0000000000000000000, -23.40000000000000213 ) ) ;
#27 = AXIS2_PLACEMENT_3D ( 'NONE', #26, #253, #42 ) ;
#28 = ADVANCED_FACE ( 'NONE', ( #62, #155 ), #175, .F. ) ;
#29 =( GEOMETRIC_REPRESENTATION_CONTEXT ( 3 ) GLOBAL_UNCERTAINTY_ASSIGNED_CONTEXT ( ( #132 ) ) GLOBAL_UNIT_ASSIGNED_CONTEXT ( ( #258, #180, #184 ) ) REPRESENTATION_CONTEXT ( 'NONE', 'WORKASPACE' ) );
#30 = EDGE_LOOP ( 'NONE', ( #117 ) ) ;
#31 = ORIENTED_EDGE ( 'NONE', *, *, #219, .T. ) ;
#32 = ORIENTED_EDGE ( 'NONE', *, *, #118, .T. ) ;
#33 = CIRCLE ( 'NONE', #268, 4.116610999999999798 ) ;
#34 = CARTESIAN_POINT ( 'NONE',  ( 3.174999999999999822, 0.0000000000000000000, -1.108545325082694840E-14 ) ) ;
#35 = CARTESIAN_POINT ( 'NONE',  ( 4.116610999999984699, 0.0000000000000000000, -4.366611000000014897 ) ) ;
#36 = EDGE_CURVE ( 'NONE', #216, #216, #56, .T. ) ;
#37 = COLOUR_RGB ( '',0.5019607843137254832, 0.5019607843137254832, 0.5019607843137254832 ) ;
#38 = DIRECTION ( 'NONE',  ( 3.491481338843133355E-15, 0.0000000000000000000, 1.000000000000000000 ) ) ;
#39 = VERTEX_POINT ( 'NONE', #277 ) ;
#40 = CARTESIAN_POINT ( 'NONE',  ( 1.178067877794498479E-14, 0.0000000000000000000, 3.374120504922530017 ) ) ;
#41 = PRODUCT_DEFINITION ( 'UNKNOWN', '', #119, #74 ) ;
#42 = DIRECTION ( 'NONE',  ( 1.000000000000000000, 0.0000000000000000000, -3.771137991253928672E-15 ) ) ;
#43 =( LENGTH_UNIT ( ) NAMED_UNIT ( * ) SI_UNIT ( .MILLI., .METRE. ) );
#44 = AXIS2_PLACEMENT_3D ( 'NONE', #292, #86, #287 ) ;
#45 =( NAMED_UNIT ( * ) PLANE_ANGLE_UNIT ( ) SI_UNIT ( $, .RADIAN. ) );
#46 = ORIENTED_EDGE ( 'NONE', *, *, #36, .T. ) ;
#47 = DIRECTION ( 'NONE',  ( 1.000000000000000000, 0.0000000000000000000, 0.0000000000000000000 ) ) ;
#48 = DIRECTION ( 'NONE',  ( -1.000000000000000000, 0.0000000000000000000, 3.278217592397115862E-15 ) ) ;
#49 = VERTEX_POINT ( 'NONE', #280 ) ;
#50 = AXIS2_PLACEMENT_3D ( 'NONE', #13, #101, #263 ) ;
#51 = ADVANCED_FACE ( 'NONE', ( #237, #265 ), #241, .T. ) ;
#52 = CARTESIAN_POINT ( 'NONE',  ( 3.899999999999925304, 0.0000000000000000000, -21.40000000000001279 ) ) ;
#53 = EDGE_LOOP ( 'NONE', ( #194 ) ) ;
#54 = PLANE ( 'NONE',  #165 ) ;
#55 = VERTEX_POINT ( 'NONE', #229 ) ;
#56 = CIRCLE ( 'NONE', #203, 3.600000000000000089 ) ;
#57 = CONICAL_SURFACE ( 'NONE', #129, 4.116610999999999798, 0.06981319100365929176 ) ;
#58 = EDGE_CURVE ( 'NONE', #281, #281, #188, .T. ) ;
#59 = EDGE_LOOP ( 'NONE', ( #85 ) ) ;
#60 = CARTESIAN_POINT ( 'NONE',  ( 0.0000000000000000000, 0.0000000000000000000, 0.0000000000000000000 ) ) ;
#61 = CIRCLE ( 'NONE', #218, 3.174999999999999822 ) ;
#62 = FACE_BOUND ( 'NONE', #251, .T. ) ;
#63 = ADVANCED_FACE ( 'NONE', ( #174, #267 ), #90, .T. ) ;
#64 = CARTESIAN_POINT ( 'NONE',  ( -7.471770065124305380E-14, 0.0000000000000000000, -21.39999999999999858 ) ) ;
#65 = FACE_OUTER_BOUND ( 'NONE', #231, .T. ) ;
#66 = DIRECTION ( 'NONE',  ( 3.491481338843133355E-15, 0.0000000000000000000, 1.000000000000000000 ) ) ;
#67 = ORIENTED_EDGE ( 'NONE', *, *, #87, .F. ) ;
#68 = AXIS2_PLACEMENT_3D ( 'NONE', #17, #125, #167 ) ;
#69 = DIRECTION ( 'NONE',  ( 3.491481338843133355E-15, 0.0000000000000000000, 1.000000000000000000 ) ) ;
#70 = FACE_OUTER_BOUND ( 'NONE', #59, .T. ) ;
#71 = ORIENTED_EDGE ( 'NONE', *, *, #87, .T. ) ;
#72 = ORIENTED_EDGE ( 'NONE', *, *, #169, .F. ) ;
#73 = AXIS2_PLACEMENT_3D ( 'NONE', #1, #69, #7 ) ;
#74 = PRODUCT_DEFINITION_CONTEXT ( 'detailed design', #140, 'design' ) ;
#75 = ORIENTED_EDGE ( 'NONE', *, *, #219, .F. ) ;
#76 = ADVANCED_FACE ( 'NONE', ( #91, #201 ), #185, .F. ) ;
#77 = VERTEX_POINT ( 'NONE', #98 ) ;
#78 = AXIS2_PLACEMENT_3D ( 'NONE', #136, #274, #204 ) ;
#79 = PRESENTATION_STYLE_ASSIGNMENT (( #15 ) ) ;
#80 = CARTESIAN_POINT ( 'NONE',  ( -8.728703347107833388E-14, 0.0000000000000000000, -25.00000000000000000 ) ) ;
#81 = CARTESIAN_POINT ( 'NONE',  ( 4.599999999999914380, 0.0000000000000000000, -24.70000000000001705 ) ) ;
#82 = FACE_OUTER_BOUND ( 'NONE', #183, .T. ) ;
#83 = AXIS2_PLACEMENT_3D ( 'NONE', #93, #66, #225 ) ;
#84 = DIRECTION ( 'NONE',  ( 1.000000000000000000, 0.0000000000000000000, -3.771137991253928672E-15 ) ) ;
#85 = ORIENTED_EDGE ( 'NONE', *, *, #244, .F. ) ;
#86 = DIRECTION ( 'NONE',  ( -3.491481338843133355E-15, 0.0000000000000000000, -1.000000000000000000 ) ) ;
#87 = EDGE_CURVE ( 'NONE', #171, #171, #162, .T. ) ;
#88 = AXIS2_PLACEMENT_3D ( 'NONE', #40, #217, #21 ) ;
#89 = CARTESIAN_POINT ( 'NONE',  ( -1.524594082048715320E-14, 0.0000000000000000000, -4.366611000000000686 ) ) ;
#90 = PLANE ( 'NONE',  #73 ) ;
#91 = FACE_OUTER_BOUND ( 'NONE', #254, .T. ) ;
#92 = CIRCLE ( 'NONE', #44, 3.174999999999999822 ) ;
#93 = CARTESIAN_POINT ( 'NONE',  ( -8.728703347107833388E-14, 0.0000000000000000000, -25.00000000000000000 ) ) ;
#94 = EDGE_CURVE ( 'NONE', #145, #145, #238, .T. ) ;
#95 = ORIENTED_EDGE ( 'NONE', *, *, #36, .F. ) ;
#96 = STYLED_ITEM ( 'NONE', ( #79 ), #242 ) ;
#97 = AXIS2_PLACEMENT_3D ( 'NONE', #64, #221, #293 ) ;
#98 = CARTESIAN_POINT ( 'NONE',  ( 3.749999999999985789, 0.0000000000000000000, -4.000000000000013323 ) ) ;
#99 = ORIENTED_EDGE ( 'NONE', *, *, #94, .F. ) ;
#100 = SURFACE_SIDE_STYLE ('',( #11 ) ) ;
#101 = DIRECTION ( 'NONE',  ( 3.491481338843133355E-15, 0.0000000000000000000, 1.000000000000000000 ) ) ;
#102 = EDGE_LOOP ( 'NONE', ( #134 ) ) ;
#103 = VERTEX_POINT ( 'NONE', #284 ) ;
#104 = CARTESIAN_POINT ( 'NONE',  ( 1.178067877794498479E-14, 0.0000000000000000000, 3.374120504922530017 ) ) ;
#105 = VERTEX_POINT ( 'NONE', #34 ) ;
#106 = FACE_OUTER_BOUND ( 'NONE', #291, .T. ) ;
#107 = CARTESIAN_POINT ( 'NONE',  ( -8.623958906942540019E-14, 0.0000000000000000000, -24.69999999999999929 ) ) ;
#108 = CLOSED_SHELL ( 'NONE', ( #76, #22, #28, #211, #270, #51, #164, #137, #63, #159, #112, #109 ) ) ;
#109 = ADVANCED_FACE ( 'NONE', ( #220, #133 ), #57, .T. ) ;
#110 = CARTESIAN_POINT ( 'NONE',  ( -8.170066332892932051E-14, 0.0000000000000000000, -23.40000000000000213 ) ) ;
#111 = DIRECTION ( 'NONE',  ( 1.000000000000000000, 0.0000000000000000000, -3.581866138384914451E-15 ) ) ;
#112 = ADVANCED_FACE ( 'NONE', ( #116, #200 ), #264, .T. ) ;
#113 = PRODUCT_DEFINITION_SHAPE ( 'NONE', 'NONE',  #41 ) ;
#114 = CARTESIAN_POINT ( 'NONE',  ( 1.178067877794498479E-14, 0.0000000000000000000, 3.374120504922530017 ) ) ;
#115 = FACE_BOUND ( 'NONE', #102, .T. ) ;
#116 = FACE_BOUND ( 'NONE', #206, .T. ) ;
#117 = ORIENTED_EDGE ( 'NONE', *, *, #58, .T. ) ;
#118 = EDGE_CURVE ( 'NONE', #240, #240, #33, .T. ) ;
#119 = PRODUCT_DEFINITION_FORMATION_WITH_SPECIFIED_SOURCE ( 'ANY', '', #252, .NOT_KNOWN. ) ;
#120 = ORIENTED_EDGE ( 'NONE', *, *, #276, .F. ) ;
#121 = AXIS2_PLACEMENT_3D ( 'NONE', #114, #273, #158 ) ;
#122 = DIRECTION ( 'NONE',  ( 1.000000000000000000, 0.0000000000000000000, -3.268313656516219635E-15 ) ) ;
#123 = CARTESIAN_POINT ( 'NONE',  ( 3.749999999999999556, 0.0000000000000000000, -0.1500000000000180633 ) ) ;
#124 = MECHANICAL_DESIGN_GEOMETRIC_PRESENTATION_REPRESENTATION (  '', ( #256 ), #249 ) ;
#125 = DIRECTION ( 'NONE',  ( -3.491481338843133355E-15, 0.0000000000000000000, -1.000000000000000000 ) ) ;
#126 = VERTEX_POINT ( 'NONE', #123 ) ;
#127 = CARTESIAN_POINT ( 'NONE',  ( -8.728703347107833388E-14, 0.0000000000000000000, -25.00000000000000000 ) ) ;
#128 = AXIS2_PLACEMENT_3D ( 'NONE', #80, #143, #192 ) ;
#129 = AXIS2_PLACEMENT_3D ( 'NONE', #4, #2, #178 ) ;
#130 = DIRECTION ( 'NONE',  ( -1.000000000000000000, 0.0000000000000000000, 3.491481338843133355E-15 ) ) ;
#131 = DIRECTION ( 'NONE',  ( -3.491481338843133355E-15, 0.0000000000000000000, -1.000000000000000000 ) ) ;
#132 = UNCERTAINTY_MEASURE_WITH_UNIT (LENGTH_MEASURE( 1.000000000000000082E-05 ), #258, 'distance_accuracy_value', 'NONE');
#133 = FACE_OUTER_BOUND ( 'NONE', #215, .T. ) ;
#134 = ORIENTED_EDGE ( 'NONE', *, *, #8, .F. ) ;
#135 = APPLICATION_PROTOCOL_DEFINITION ( 'draft international standard', 'automotive_design', 1998, #261 ) ;
#136 = CARTESIAN_POINT ( 'NONE',  ( -1.396592535537253342E-14, 0.0000000000000000000, -4.000000000000000000 ) ) ;
#137 = ADVANCED_FACE ( 'NONE', ( #115, #70 ), #24, .F. ) ;
#138 = DIRECTION ( 'NONE',  ( 3.491481338843133355E-15, 0.0000000000000000000, 1.000000000000000000 ) ) ;
#139 = ORIENTED_EDGE ( 'NONE', *, *, #94, .T. ) ;
#140 = APPLICATION_CONTEXT ( 'automotive_design' ) ;
#141 = CIRCLE ( 'NONE', #50, 3.750000000000000000 ) ;
#142 = EDGE_LOOP ( 'NONE', ( #120 ) ) ;
#143 = DIRECTION ( 'NONE',  ( 3.491481338843133355E-15, 0.0000000000000000000, 1.000000000000000000 ) ) ;
#144 = MANIFOLD_SOLID_BREP ( 'NONE', #108 ) ;
#145 = VERTEX_POINT ( 'NONE', #234 ) ;
#146 = UNCERTAINTY_MEASURE_WITH_UNIT (LENGTH_MEASURE( 1.000000000000000082E-05 ), #43, 'distance_accuracy_value', 'NONE');
#147 =( NAMED_UNIT ( * ) SI_UNIT ( $, .STERADIAN. ) SOLID_ANGLE_UNIT ( ) );
#148 = EDGE_CURVE ( 'NONE', #39, #39, #6, .T. ) ;
#149 = DIRECTION ( 'NONE',  ( 1.000000000000000000, 0.0000000000000000000, -3.491481338843133355E-15 ) ) ;
#150 = EDGE_LOOP ( 'NONE', ( #99 ) ) ;
#151 = FACE_OUTER_BOUND ( 'NONE', #239, .T. ) ;
#152 = FACE_BOUND ( 'NONE', #235, .T. ) ;
#153 = DIRECTION ( 'NONE',  ( 3.491481338843133355E-15, 0.0000000000000000000, 1.000000000000000000 ) ) ;
#154 = PRESENTATION_LAYER_ASSIGNMENT (  '', '', ( #256 ) ) ;
#155 = FACE_OUTER_BOUND ( 'NONE', #142, .T. ) ;
#156 = FILL_AREA_STYLE ('',( #176 ) ) ;
#157 = AXIS2_PLACEMENT_3D ( 'NONE', #20, #38, #289 ) ;
#158 = DIRECTION ( 'NONE',  ( 1.000000000000000000, 0.0000000000000000000, -3.469446951953614189E-15 ) ) ;
#159 = ADVANCED_FACE ( 'NONE', ( #224, #65 ), #222, .T. ) ;
#160 = SURFACE_STYLE_FILL_AREA ( #156 ) ;
#161 = EDGE_LOOP ( 'NONE', ( #16 ) ) ;
#162 = CIRCLE ( 'NONE', #97, 3.899999999999999911 ) ;
#163 = FILL_AREA_STYLE ('',( #232 ) ) ;
#164 = ADVANCED_FACE ( 'NONE', ( #250, #106 ), #230, .T. ) ;
#165 = AXIS2_PLACEMENT_3D ( 'NONE', #214, #233, #189 ) ;
#166 = AXIS2_PLACEMENT_3D ( 'NONE', #110, #199, #177 ) ;
#167 = DIRECTION ( 'NONE',  ( 1.000000000000000000, 0.0000000000000000000, -3.491130995403324278E-15 ) ) ;
#168 =( NAMED_UNIT ( * ) PLANE_ANGLE_UNIT ( ) SI_UNIT ( $, .RADIAN. ) );
#169 = EDGE_CURVE ( 'NONE', #126, #126, #290, .T. ) ;
#170 = ORIENTED_EDGE ( 'NONE', *, *, #148, .T. ) ;
#171 = VERTEX_POINT ( 'NONE', #52 ) ;
#172 = DIRECTION ( 'NONE',  ( -3.491481338843133355E-15, 0.0000000000000000000, -1.000000000000000000 ) ) ;
#173 = CONICAL_SURFACE ( 'NONE', #226, 3.600000000000000089, 0.7853981633974433940 ) ;
#174 = FACE_BOUND ( 'NONE', #205, .T. ) ;
#175 = PLANE ( 'NONE',  #18 ) ;
#176 = FILL_AREA_STYLE_COLOUR ( '', #279 ) ;
#177 = DIRECTION ( 'NONE',  ( 1.000000000000000000, 0.0000000000000000000, -3.558407130208835045E-15 ) ) ;
#178 = DIRECTION ( 'NONE',  ( -1.000000000000000000, 0.0000000000000000000, 3.581866138384914451E-15 ) ) ;
#179 = EDGE_LOOP ( 'NONE', ( #72 ) ) ;
#180 =( NAMED_UNIT ( * ) PLANE_ANGLE_UNIT ( ) SI_UNIT ( $, .RADIAN. ) );
#181 = AXIS2_PLACEMENT_3D ( 'NONE', #104, #236, #187 ) ;
#182 = PRESENTATION_STYLE_ASSIGNMENT (( #247 ) ) ;
#183 = EDGE_LOOP ( 'NONE', ( #139 ) ) ;
#184 =( NAMED_UNIT ( * ) SI_UNIT ( $, .STERADIAN. ) SOLID_ANGLE_UNIT ( ) );
#185 = CYLINDRICAL_SURFACE ( 'NONE', #10, 3.174999999999999822 ) ;
#186 = EDGE_LOOP ( 'NONE', ( #283 ) ) ;
#187 = DIRECTION ( 'NONE',  ( 1.000000000000000000, 0.0000000000000000000, -3.447206907389809172E-15 ) ) ;
#188 = CIRCLE ( 'NONE', #213, 4.599999999999999645 ) ;
#189 = DIRECTION ( 'NONE',  ( 1.000000000000000000, 0.0000000000000000000, -3.491481338843133355E-15 ) ) ;
#190 = DIRECTION ( 'NONE',  ( 1.000000000000000000, 0.0000000000000000000, -3.491481338843133355E-15 ) ) ;
#191 = CARTESIAN_POINT ( 'NONE',  ( 3.600000000000000089, 0.0000000000000000000, -1.256933281983528008E-14 ) ) ;
#192 = DIRECTION ( 'NONE',  ( 1.000000000000000000, 0.0000000000000000000, -3.227392513445222712E-15 ) ) ;
#193 = DIRECTION ( 'NONE',  ( 3.491481338843133355E-15, 0.0000000000000000000, 1.000000000000000000 ) ) ;
#194 = ORIENTED_EDGE ( 'NONE', *, *, #169, .T. ) ;
#195 = DIRECTION ( 'NONE',  ( 1.000000000000000000, 0.0000000000000000000, -3.278217592397115862E-15 ) ) ;
#196 = CARTESIAN_POINT ( 'NONE',  ( -8.728703347107833388E-14, 0.0000000000000000000, -25.00000000000000000 ) ) ;
#197 = CIRCLE ( 'NONE', #202, 5.307701947511040963 ) ;
#198 = DIRECTION ( 'NONE',  ( 0.0000000000000000000, 0.0000000000000000000, 1.000000000000000000 ) ) ;
#199 = DIRECTION ( 'NONE',  ( 3.491481338843133355E-15, 0.0000000000000000000, 1.000000000000000000 ) ) ;
#200 = FACE_OUTER_BOUND ( 'NONE', #228, .T. ) ;
#201 = FACE_OUTER_BOUND ( 'NONE', #186, .T. ) ;
#202 = AXIS2_PLACEMENT_3D ( 'NONE', #210, #138, #122 ) ;
#203 = AXIS2_PLACEMENT_3D ( 'NONE', #282, #153, #149 ) ;
#204 = DIRECTION ( 'NONE',  ( -1.000000000000000000, 0.0000000000000000000, 3.469446951953614189E-15 ) ) ;
#205 = EDGE_LOOP ( 'NONE', ( #207 ) ) ;
#206 = EDGE_LOOP ( 'NONE', ( #75 ) ) ;
#207 = ORIENTED_EDGE ( 'NONE', *, *, #12, .T. ) ;
#208 = MECHANICAL_DESIGN_GEOMETRIC_PRESENTATION_REPRESENTATION (  '', ( #96 ), #29 ) ;
#209 = ORIENTED_EDGE ( 'NONE', *, *, #148, .F. ) ;
#210 = CARTESIAN_POINT ( 'NONE',  ( -7.471770065124305380E-14, 0.0000000000000000000, -21.39999999999999858 ) ) ;
#211 = ADVANCED_FACE ( 'NONE', ( #151, #278 ), #260, .T. ) ;
#212 = DIRECTION ( 'NONE',  ( 3.491481338843133355E-15, 0.0000000000000000000, 1.000000000000000000 ) ) ;
#213 = AXIS2_PLACEMENT_3D ( 'NONE', #107, #193, #84 ) ;
#214 = CARTESIAN_POINT ( 'NONE',  ( -8.170066332892932051E-14, 0.0000000000000000000, -23.40000000000000213 ) ) ;
#215 = EDGE_LOOP ( 'NONE', ( #257 ) ) ;
#216 = VERTEX_POINT ( 'NONE', #191 ) ;
#217 = DIRECTION ( 'NONE',  ( 3.491481338843133355E-15, 0.0000000000000000000, 1.000000000000000000 ) ) ;
#218 = AXIS2_PLACEMENT_3D ( 'NONE', #127, #23, #195 ) ;
#219 = EDGE_CURVE ( 'NONE', #77, #77, #141, .T. ) ;
#220 = FACE_BOUND ( 'NONE', #161, .T. ) ;
#221 = DIRECTION ( 'NONE',  ( 3.491481338843133355E-15, 0.0000000000000000000, 1.000000000000000000 ) ) ;
#222 = CYLINDRICAL_SURFACE ( 'NONE', #121, 3.750000000000000000 ) ;
#223 = CARTESIAN_POINT ( 'NONE',  ( 0.0000000000000000000, 0.0000000000000000000, 0.0000000000000000000 ) ) ;
#224 = FACE_OUTER_BOUND ( 'NONE', #53, .T. ) ;
#225 = DIRECTION ( 'NONE',  ( 1.000000000000000000, 0.0000000000000000000, -3.491481338843133355E-15 ) ) ;
#226 = AXIS2_PLACEMENT_3D ( 'NONE', #60, #172, #130 ) ;
#227 = EDGE_LOOP ( 'NONE', ( #266 ) ) ;
#228 = EDGE_LOOP ( 'NONE', ( #32 ) ) ;
#229 = CARTESIAN_POINT ( 'NONE',  ( 3.174999999999912781, 0.0000000000000000000, -25.00000000000001066 ) ) ;
#230 = CONICAL_SURFACE ( 'NONE', #157, 4.599999999999999645, 0.7853981633974476129 ) ;
#231 = EDGE_LOOP ( 'NONE', ( #31 ) ) ;
#232 = FILL_AREA_STYLE_COLOUR ( '', #37 ) ;
#233 = DIRECTION ( 'NONE',  ( 3.491481338843133355E-15, 0.0000000000000000000, 1.000000000000000000 ) ) ;
#234 = CARTESIAN_POINT ( 'NONE',  ( 4.599999999999918820, 0.0000000000000000000, -23.40000000000001634 ) ) ;
#235 = EDGE_LOOP ( 'NONE', ( #95 ) ) ;
#236 = DIRECTION ( 'NONE',  ( 3.491481338843133355E-15, 0.0000000000000000000, 1.000000000000000000 ) ) ;
#237 = FACE_OUTER_BOUND ( 'NONE', #150, .T. ) ;
#238 = CIRCLE ( 'NONE', #27, 4.599999999999999645 ) ;
#239 = EDGE_LOOP ( 'NONE', ( #67 ) ) ;
#240 = VERTEX_POINT ( 'NONE', #35 ) ;
#241 = CYLINDRICAL_SURFACE ( 'NONE', #88, 4.599999999999999645 ) ;
#242 = ADVANCED_BREP_SHAPE_REPRESENTATION ( 'SK6-1_4A_light', ( #144, #243 ), #255 ) ;
#243 = AXIS2_PLACEMENT_3D ( 'NONE', #223, #198, #47 ) ;
#244 = EDGE_CURVE ( 'NONE', #103, #103, #248, .T. ) ;
#245 = CARTESIAN_POINT ( 'NONE',  ( -7.471770065124305380E-14, 0.0000000000000000000, -21.39999999999999858 ) ) ;
#246 = UNCERTAINTY_MEASURE_WITH_UNIT (LENGTH_MEASURE( 1.000000000000000082E-05 ), #259, 'distance_accuracy_value', 'NONE');
#247 = SURFACE_STYLE_USAGE ( .BOTH. , #269 ) ;
#248 = CIRCLE ( 'NONE', #128, 4.299999999999999822 ) ;
#249 =( GEOMETRIC_REPRESENTATION_CONTEXT ( 3 ) GLOBAL_UNCERTAINTY_ASSIGNED_CONTEXT ( ( #146 ) ) GLOBAL_UNIT_ASSIGNED_CONTEXT ( ( #43, #45, #271 ) ) REPRESENTATION_CONTEXT ( 'NONE', 'WORKASPACE' ) );
#250 = FACE_BOUND ( 'NONE', #227, .T. ) ;
#251 = EDGE_LOOP ( 'NONE', ( #71 ) ) ;
#252 = PRODUCT ( 'SK6-1_4A_light', 'SK6-1_4A_light', '', ( #294 ) ) ;
#253 = DIRECTION ( 'NONE',  ( 3.491481338843133355E-15, 0.0000000000000000000, 1.000000000000000000 ) ) ;
#254 = EDGE_LOOP ( 'NONE', ( #262 ) ) ;
#255 =( GEOMETRIC_REPRESENTATION_CONTEXT ( 3 ) GLOBAL_UNCERTAINTY_ASSIGNED_CONTEXT ( ( #246 ) ) GLOBAL_UNIT_ASSIGNED_CONTEXT ( ( #259, #168, #147 ) ) REPRESENTATION_CONTEXT ( 'NONE', 'WORKASPACE' ) );
#256 = STYLED_ITEM ( 'NONE', ( #182 ), #144 ) ;
#257 = ORIENTED_EDGE ( 'NONE', *, *, #276, .T. ) ;
#258 =( LENGTH_UNIT ( ) NAMED_UNIT ( * ) SI_UNIT ( .MILLI., .METRE. ) );
#259 =( LENGTH_UNIT ( ) NAMED_UNIT ( * ) SI_UNIT ( .MILLI., .METRE. ) );
#260 = CYLINDRICAL_SURFACE ( 'NONE', #181, 3.899999999999999911 ) ;
#261 = APPLICATION_CONTEXT ( 'automotive_design' ) ;
#262 = ORIENTED_EDGE ( 'NONE', *, *, #12, .F. ) ;
#263 = DIRECTION ( 'NONE',  ( 1.000000000000000000, 0.0000000000000000000, -3.469446951953614189E-15 ) ) ;
#264 = CONICAL_SURFACE ( 'NONE', #78, 3.750000000000000000, 0.7853981633974476129 ) ;
#265 = FACE_OUTER_BOUND ( 'NONE', #30, .T. ) ;
#266 = ORIENTED_EDGE ( 'NONE', *, *, #244, .T. ) ;
#267 = FACE_OUTER_BOUND ( 'NONE', #14, .T. ) ;
#268 = AXIS2_PLACEMENT_3D ( 'NONE', #89, #275, #111 ) ;
#269 = SURFACE_SIDE_STYLE ('',( #160 ) ) ;
#270 = ADVANCED_FACE ( 'NONE', ( #286, #82 ), #54, .T. ) ;
#271 =( NAMED_UNIT ( * ) SI_UNIT ( $, .STERADIAN. ) SOLID_ANGLE_UNIT ( ) );
#272 = SHAPE_DEFINITION_REPRESENTATION ( #113, #242 ) ;
#273 = DIRECTION ( 'NONE',  ( 3.491481338843133355E-15, 0.0000000000000000000, 1.000000000000000000 ) ) ;
#274 = DIRECTION ( 'NONE',  ( -3.491481338843133355E-15, 0.0000000000000000000, -1.000000000000000000 ) ) ;
#275 = DIRECTION ( 'NONE',  ( 3.491481338843133355E-15, 0.0000000000000000000, 1.000000000000000000 ) ) ;
#276 = EDGE_CURVE ( 'NONE', #49, #49, #197, .T. ) ;
#277 = CARTESIAN_POINT ( 'NONE',  ( 3.899999999999918199, 0.0000000000000000000, -23.40000000000001279 ) ) ;
#278 = FACE_OUTER_BOUND ( 'NONE', #9, .T. ) ;
#279 = COLOUR_RGB ( '',0.5019607843137254832, 0.5019607843137254832, 0.5019607843137254832 ) ;
#280 = CARTESIAN_POINT ( 'NONE',  ( 5.307701947510966356, 0.0000000000000000000, -21.40000000000001634 ) ) ;
#281 = VERTEX_POINT ( 'NONE', #81 ) ;
#282 = CARTESIAN_POINT ( 'NONE',  ( 0.0000000000000000000, 0.0000000000000000000, 0.0000000000000000000 ) ) ;
#283 = ORIENTED_EDGE ( 'NONE', *, *, #8, .T. ) ;
#284 = CARTESIAN_POINT ( 'NONE',  ( 4.299999999999912781, 0.0000000000000000000, -25.00000000000001421 ) ) ;
#285 = PRODUCT_RELATED_PRODUCT_CATEGORY ( 'part', '', ( #252 ) ) ;
#286 = FACE_BOUND ( 'NONE', #288, .T. ) ;
#287 = DIRECTION ( 'NONE',  ( 1.000000000000000000, 0.0000000000000000000, -3.491481338843133355E-15 ) ) ;
#288 = EDGE_LOOP ( 'NONE', ( #209 ) ) ;
#289 = DIRECTION ( 'NONE',  ( 1.000000000000000000, 0.0000000000000000000, -3.771137991253928672E-15 ) ) ;
#290 = CIRCLE ( 'NONE', #68, 3.750000000000000000 ) ;
#291 = EDGE_LOOP ( 'NONE', ( #5 ) ) ;
#292 = CARTESIAN_POINT ( 'NONE',  ( 0.0000000000000000000, 0.0000000000000000000, 0.0000000000000000000 ) ) ;
#293 = DIRECTION ( 'NONE',  ( 1.000000000000000000, 0.0000000000000000000, -3.558407130208835045E-15 ) ) ;
#294 = PRODUCT_CONTEXT ( 'NONE', #261, 'mechanical' ) ;
ENDSEC;
END-ISO-10303-21;
